Случайная игра.

Меню

Категории, Жанр
Nes, Famicom, Dendy [2]
Sega Mega Drive, 2 / Genesis [0]
Super Nintendo, Snes, Super Famicom [0]

Главная » Секреты Пароли Cheat-Коды Cтатьи » Ноты, Аккорды, Табулатуры » Nes, Famicom, Dendy

The Guardian Legend - Boss battle (distortion guitar)

Boss battle (distortion guitar)
|-------------------------------| 
|-------------------------------|
|-------------------------------|
|------------------------------|
|--7--7--7--7--7--7--7--7--|
|------------------------------|

------------------------------|------------------------------|
------------------------------|------------------------------|
------------------------------|------------------------------|
------------------------------|--6--6--6--6--6--6--6--6--|
--8--8--8--8--8--8--8--8--|------------------------------|
------------------------------|------------------------------|

------------------------------|------------------------------|
------------------------------|------------------------------|
------------------------------|--5--5--5--5--5--5--5--5--|
--7--7--7--7--7--7--7--7--|------------------------------|
------------------------------|------------------------------|
------------------------------|------------------------------|

------------------------------|--4--4--4--4--4--4--4--4--|
--5--5--5--5--5--5--5--5--|------------------------------|
------------------------------|------------------------------|
------------------------------|------------------------------|
------------------------------|------------------------------|
------------------------------|------------------------------|

--5--5--5--5--5--5--5--5--|-----4-----------------|---------------0------|
------------------------------|----------5------------|------------0---------|
------------------------------|---------------4-------|----------------------|
------------------------------|------------------6----|-------6--------------|
------------------------------|-----------------------|--7-------------------|
------------------------------|-----------------------|----------------------|

---3--2-----------------|-----------------------|--------------------|
----------3-------------|---------------3------|--2----------------|
---------------2--------|------------2---------|--------------------|
------------------4-----|--0----4-------------|--------------------|
-------------------------|----------------------|--------------------|
-------------------------|----------------------|--------------------|

---------------------|---------------------|--0----------0--2--3--|
---------------2----|--2------------3----|-------------------------|
---------------------|---------------------|-------------------------|
---------------------|---------------------|-------------------------|
---------------------|---------------------|-------------------------|
---------------------|---------------------|-------------------------|

--5------------3-----|--2-------------0--2--|--0----------------|
----------------------|--------------3--------|-------------------|
----------------------|------------------------|-------------------|
----------------------|------------------------|-------------------|
----------------------|------------------------|-------------------|
----------------------|------------------------|-------------------|

-----12--12--12--12-------------||
------------------------------------||
--------------------------9--9-----||
------------------------------------||
---------------------------------7--||
-------------------------------------||

Источник: © ОldCityRetroGames.Ru

Похожие коды, статьи:
Категория: Nes, Famicom, Dendy | Добавил: EmeraldGP (17.03.2018)
Просмотров: 23 | Теги: The Guardian Legend, Boss battle, distortion guitar | Рейтинг: 0.0/0

Если в сборнике нет кодов / паролей к игре, и вы желаете их добавить., перейдите в раздел, нажав кнопку - Добавить. Мы будем вам признательны за наполнение сборника кодов. Желаем вам хорошего настроения и ностальгии - OldCityRetroGames.ru

Всего комментариев: 0
Добавлять комментарии могут только зарегистрированные пользователи.
[ Регистрация | Вход ]





Вы вошли как:
Гость

Группа: Гости
На сайте: дней
Ты пользователь №
Личных сообщений:
[ Управление профилем ]
200

Наши друзья:

Яндекс.Метрика
Онлайн всего: 1
Гостей: 1
Пользователей: 0

Сейчас онлайн:

Конструктор сайтов - uCoz

OldCityRetroGames © 2011-2018

Все права на материал с сайта сохранены и принадлежат их авторам. Любое копирование текста с сайта должно сопровождаться прямой активной ссылкой на наш сайт. Все игры (в том числе и онлайн), эмуляторы, и другие программы и материалы, предоставляются на некоммерческой основе (бесплатно) игры скачанные с этого сайта, носят ознакомительный характер и после ознакомления должны быть удалены. Некоторые материалы доступны на картриджах и других легальных носителях, поэтому могут быть приобретены для частного использования.

%